《往事只能回味》TXT赢咖2_六线谱

歌手:赢咖2注册 来源:未知 2020-03-13 曲谱热度:°


往事只能回味的赢咖2:
前奏简谱: 2 32 1 6 5 5(高) 5(高)3(高)2(高)1(高) 
一试便知 C调 2弦起2音 
  
伴奏部分()中为重复次数 无括号这只弹一次 右手指法为5312或 5 3 12(同时) 3 
C(4)  
时光一逝永不回 
F(2) G7(2) 
往事只能回味 
F(2) C Am 
忆童年时竹马青梅 
Dm G C(只弹前2音然后加花 5321) 
两小无猜日夜相随 
Dm(2) C  
春风又吹红了花蕊 
Am(2) F G 
你已经添了新岁 
F(2) C Am 
你就要变心像时光难倒回 
Dm G C(同上次加花) 
我只有在梦里想依偎 
F(2) C Am 
你就要变心像时光难倒回 
Dm G C(只弹前2音 空半拍后重弹前奏结束伴奏) 
我只有在梦里想依偎 
注:常玩吉他的朋友应该很熟悉GTP,下面的是GTP导出的ASCII Tab文件
  陈羽凡-往事只能回味                               
伴奏
                                                                             
E||------------------|--0--2-0----------5--7-5-----|------------------------|
B||------------------|---------3--0------------7-5-|-----7--7--7---7--------|
G||------------------|---------------2-------------|-----7--7--7---7--------|
D||------------------|-----------------------------|-----7--7--7---7--------|
A||------------------|-----------------------------|--5-----9--9---9--------|
E||------------------|-----------------------------|------------------------|
                                                      
--------------------------|--------------------------|
--------3-----------3-----|--------3--0--------3-----|
-----------2-----------2--|-----------------2-----2--|
--0--4--------0--4--------|-----4--------0-----------|
--------------------------|--2-----------------------|
--------------------------|--------------------------|
                                                      
--------------2-----------|--------------------3-----|
--------3--0-----0--3--0--|--------2--------------2--|
--------------------------|-----------2-----2--------|
-----4--------------------|-----2--------------------|
--2-----------------------|--0-----------0-----------|
--------------------------|--------------------------|
                                                      
--------------3-----------|--------2-----------------|
-----0--3--0-----0--3--0--|-----------3--------3--0--|
--0-----------------------|--------------------------|
--------------------------|--0--4-----------4--------|
--------------------------|--------------2-----------|
--------------------------|--------------------------|
                                                                              
--------3--0--------5-----|--------------2--------|--------3--0--------5-----|
-----0-----------------2--|--------3--------------|-----0-----------------2--|
--------------------------|-----2-----2-----------|--------------------------|
--2--------------2--------|--0--------------------|--2--------------2--------|
--------------0-----------|-----------------------|--------------0-----------|
--------------------------|-----------------------|--------------------------|
                                                                              
--------------2-----------|--------------------3-----|--------------5--------|
--------3-----------3-----|--------3--0-----0-----3--|--------2--------------|
-----2-----2-----2-----2--|--------------0-----------|-----------2-----------|
--0-----------------------|-----4--------------------|-----2-----------------|
--------------------------|--2-----------------------|--0--------------------|
--------------------------|--------------------------|-----------------------|
                                                      
--------------3-----------|--------2-----------------|
-----0--3--0-----0--3--0--|-----------3--------3--0--|
--0-----------------------|--------------------------|
--------------------------|--0--4-----------4--------|
--------------------------|--------------2-----------|
--------------------------|--------------------------|
                                                        
--------3--0-----5--7-5-----|--------------2-----------|
-----0------------------7-5-|--------3-----------3-----|
----------------------------|-----2-----2-----2-----2--|
--2-------------------------|--------------------------|
--------------0-------------|--5-----------------------|
----------------------------|--------------------------|
                                                      
--------------3-----------|--------2-----------------|
-----0--3--0-----0--3--0--|-----------3--------3--0--|
--0-----------------------|--------------------------|
--------------------------|--0--4-----------4--------|
--------------------------|--------------2-----------|
--------------------------|--------------------------|
                                                         
--------3--0--------5-----|--------------------2-------||
-----0-----------------2--|--------3---------3---------||
--------------------------|-----2-----2----2-----------||
--2--------------2--------|--0-----------4-------------||
--------------0-----------|----------------------------||
--------------------------|----------------------------||

  • 上一篇:李志《1990年的春天》TXT赢咖2 下一篇:没有了
  • 1.本站遵循行业规范,任何转载的曲谱和教程都会明确标注作者和来源;2.本站的原创曲谱,请转载时务必注明文章作者和来源,不尊重原创的行为我们将追究责任;3.作者投稿可能会经我们编辑修改或补充。

    TXT谱 六线谱 TXT赢咖2赢咖2
    自动滚屏
    关闭
    自动滚屏