花儿乐队《嫩》TXT赢咖2_含有SOLO

歌手:赢咖2注册 来源:未知 2020-03-18 曲谱热度:°

1=C  4/4拍

      G(3)      Am         F       D
每一天睁开紧缩的双眼 只看到窗外的天线
      G(3)      Am         F       D
………………………………………………
C     G(3)      C       G(3)    C        F       D
这种话真让我讨厌 我宁愿听不见 我不想回家只憋在屋里面
F         G(3)      C
我不原想 我没理想  一切都稚嫩的生长 
F         G(3)      C
………………………………………………
F          C
直到最后跟他们一样
SOLO:
-------------12~~-------------12---10----9----------------------------------------
----9---10----------9----10------------------10----9----10~-----9----10----12-------------
----------------------------------------------------------------------------
----------------------------------------------------------------------------
----------------------------------------------------------------------------
----------------------------------------------------------------------------


-------------12~~-------------12---10----9------------------------------------12-------12
----9---10----------9----10------------------10----9----10~-----9----10----12-----12--------
----------------------------------------------------------------------------
----------------------------------------------------------------------------
----------------------------------------------------------------------------
----------------------------------------------------------------------------
 

1.本站遵循行业规范,任何转载的曲谱和教程都会明确标注作者和来源;2.本站的原创曲谱,请转载时务必注明文章作者和来源,不尊重原创的行为我们将追究责任;3.作者投稿可能会经我们编辑修改或补充。

TXT谱 TXT赢咖2 花儿乐队 嫩TXT赢咖2 含有SOLO赢咖2
自动滚屏
关闭
自动滚屏